ISO-10303-21;
HEADER;
/* Generated by software containing ST-Developer
 * from STEP Tools, Inc. (www.steptools.com) 
 */
/* OPTION: using custom schema-name function */

FILE_DESCRIPTION(
/* description */ (''),
/* implementation_level */ '2;1');

FILE_NAME(
/* name */ '530-201_Modell.stp',
/* time_stamp */ '2026-03-25T08:54:29+01:00',
/* author */ (''),
/* organization */ (''),
/* preprocessor_version */ 'ST-DEVELOPER v19.4',
/* originating_system */ 'SIEMENS PLM Software NX2306.1700',
/* authorisation */ '');

FILE_SCHEMA (('AUTOMOTIVE_DESIGN { 1 0 10303 214 3 1 1 1 }'));
ENDSEC;

DATA;
#10=SHAPE_REPRESENTATION_RELATIONSHIP('None',
'relationship between 016265_002_1-Dummi_stp-None and 016265_002_1-Dum
mi_stp-None',#22,#11);
#11=ADVANCED_BREP_SHAPE_REPRESENTATION('016265_002_1-Dummi_stp-None',(#32),
#462);
#12=SHAPE_DEFINITION_REPRESENTATION(#13,#22);
#13=PRODUCT_DEFINITION_SHAPE('','',#14);
#14=PRODUCT_DEFINITION(' ','',#16,#15);
#15=PRODUCT_DEFINITION_CONTEXT('part definition',#21,'design');
#16=PRODUCT_DEFINITION_FORMATION_WITH_SPECIFIED_SOURCE(' ',' ',#18,
 .NOT_KNOWN.);
#17=PRODUCT_RELATED_PRODUCT_CATEGORY('part','',(#18));
#18=PRODUCT('016265_002_1-Dummi_stp','016265_002_1-Dummi_stp',' ',(#19));
#19=PRODUCT_CONTEXT(' ',#21,'mechanical');
#20=APPLICATION_PROTOCOL_DEFINITION('international standard',
'automotive_design',2010,#21);
#21=APPLICATION_CONTEXT(
'core data for automotive mechanical design processes');
#22=SHAPE_REPRESENTATION('016265_002_1-Dummi_stp-None',(#282),#462);
#23=PRESENTATION_LAYER_ASSIGNMENT('1','Layer 1',(#32));
#24=STYLED_ITEM('',(#25),#32);
#25=PRESENTATION_STYLE_ASSIGNMENT((#26));
#26=SURFACE_STYLE_USAGE(.BOTH.,#27);
#27=SURFACE_SIDE_STYLE('',(#28));
#28=SURFACE_STYLE_FILL_AREA(#29);
#29=FILL_AREA_STYLE('',(#30));
#30=FILL_AREA_STYLE_COLOUR('',#31);
#31=DRAUGHTING_PRE_DEFINED_COLOUR('blue');
#32=MANIFOLD_SOLID_BREP('',#33);
#33=CLOSED_SHELL('',(#42,#43,#44,#45,#46,#47,#48,#49,#50,#51,#52,#53,#54,
#55));
#34=PLANE('',#286);
#35=PLANE('',#290);
#36=PLANE('',#294);
#37=PLANE('',#298);
#38=PLANE('',#302);
#39=PLANE('',#306);
#40=PLANE('',#307);
#41=PLANE('',#308);
#42=ADVANCED_FACE('',(#62),#56,.T.);
#43=ADVANCED_FACE('',(#63),#34,.F.);
#44=ADVANCED_FACE('',(#64),#57,.T.);
#45=ADVANCED_FACE('',(#65),#35,.F.);
#46=ADVANCED_FACE('',(#66),#58,.T.);
#47=ADVANCED_FACE('',(#67),#36,.F.);
#48=ADVANCED_FACE('',(#68),#59,.T.);
#49=ADVANCED_FACE('',(#69),#37,.F.);
#50=ADVANCED_FACE('',(#70),#60,.T.);
#51=ADVANCED_FACE('',(#71),#38,.F.);
#52=ADVANCED_FACE('',(#72),#61,.T.);
#53=ADVANCED_FACE('',(#73),#39,.F.);
#54=ADVANCED_FACE('',(#74),#40,.F.);
#55=ADVANCED_FACE('',(#75),#41,.T.);
#56=CYLINDRICAL_SURFACE('',#285,6.2);
#57=CYLINDRICAL_SURFACE('',#289,6.2);
#58=CYLINDRICAL_SURFACE('',#293,6.2);
#59=CYLINDRICAL_SURFACE('',#297,6.2);
#60=CYLINDRICAL_SURFACE('',#301,6.2);
#61=CYLINDRICAL_SURFACE('',#305,6.2);
#62=FACE_OUTER_BOUND('',#76,.T.);
#63=FACE_OUTER_BOUND('',#77,.T.);
#64=FACE_OUTER_BOUND('',#78,.T.);
#65=FACE_OUTER_BOUND('',#79,.T.);
#66=FACE_OUTER_BOUND('',#80,.T.);
#67=FACE_OUTER_BOUND('',#81,.T.);
#68=FACE_OUTER_BOUND('',#82,.T.);
#69=FACE_OUTER_BOUND('',#83,.T.);
#70=FACE_OUTER_BOUND('',#84,.T.);
#71=FACE_OUTER_BOUND('',#85,.T.);
#72=FACE_OUTER_BOUND('',#86,.T.);
#73=FACE_OUTER_BOUND('',#87,.T.);
#74=FACE_OUTER_BOUND('',#88,.T.);
#75=FACE_OUTER_BOUND('',#89,.T.);
#76=EDGE_LOOP('',(#138,#139,#140,#141));
#77=EDGE_LOOP('',(#142,#143,#144,#145));
#78=EDGE_LOOP('',(#146,#147,#148,#149));
#79=EDGE_LOOP('',(#150,#151,#152,#153));
#80=EDGE_LOOP('',(#154,#155,#156,#157));
#81=EDGE_LOOP('',(#158,#159,#160,#161));
#82=EDGE_LOOP('',(#162,#163,#164,#165));
#83=EDGE_LOOP('',(#166,#167,#168,#169));
#84=EDGE_LOOP('',(#170,#171,#172,#173));
#85=EDGE_LOOP('',(#174,#175,#176,#177));
#86=EDGE_LOOP('',(#178,#179,#180,#181));
#87=EDGE_LOOP('',(#182,#183,#184,#185));
#88=EDGE_LOOP('',(#186,#187,#188,#189,#190,#191,#192,#193,#194,#195,#196,
#197));
#89=EDGE_LOOP('',(#198,#199,#200,#201,#202,#203,#204,#205,#206,#207,#208,
#209));
#90=LINE('',#391,#114);
#91=LINE('',#395,#115);
#92=LINE('',#397,#116);
#93=LINE('',#399,#117);
#94=LINE('',#401,#118);
#95=LINE('',#407,#119);
#96=LINE('',#409,#120);
#97=LINE('',#411,#121);
#98=LINE('',#413,#122);
#99=LINE('',#419,#123);
#100=LINE('',#421,#124);
#101=LINE('',#423,#125);
#102=LINE('',#425,#126);
#103=LINE('',#431,#127);
#104=LINE('',#433,#128);
#105=LINE('',#435,#129);
#106=LINE('',#437,#130);
#107=LINE('',#443,#131);
#108=LINE('',#445,#132);
#109=LINE('',#447,#133);
#110=LINE('',#449,#134);
#111=LINE('',#455,#135);
#112=LINE('',#457,#136);
#113=LINE('',#458,#137);
#114=VECTOR('',#313,1.);
#115=VECTOR('',#316,1.);
#116=VECTOR('',#319,1.);
#117=VECTOR('',#320,1.);
#118=VECTOR('',#321,1.);
#119=VECTOR('',#328,1.);
#120=VECTOR('',#331,1.);
#121=VECTOR('',#332,1.);
#122=VECTOR('',#333,1.);
#123=VECTOR('',#340,1.);
#124=VECTOR('',#343,1.);
#125=VECTOR('',#344,1.);
#126=VECTOR('',#345,1.);
#127=VECTOR('',#352,1.);
#128=VECTOR('',#355,1.);
#129=VECTOR('',#356,1.);
#130=VECTOR('',#357,1.);
#131=VECTOR('',#364,1.);
#132=VECTOR('',#367,1.);
#133=VECTOR('',#368,1.);
#134=VECTOR('',#369,1.);
#135=VECTOR('',#376,1.);
#136=VECTOR('',#379,1.);
#137=VECTOR('',#380,1.);
#138=ORIENTED_EDGE('',*,*,#234,.T.);
#139=ORIENTED_EDGE('',*,*,#235,.F.);
#140=ORIENTED_EDGE('',*,*,#236,.F.);
#141=ORIENTED_EDGE('',*,*,#237,.T.);
#142=ORIENTED_EDGE('',*,*,#238,.T.);
#143=ORIENTED_EDGE('',*,*,#237,.F.);
#144=ORIENTED_EDGE('',*,*,#239,.F.);
#145=ORIENTED_EDGE('',*,*,#240,.T.);
#146=ORIENTED_EDGE('',*,*,#241,.T.);
#147=ORIENTED_EDGE('',*,*,#240,.F.);
#148=ORIENTED_EDGE('',*,*,#242,.F.);
#149=ORIENTED_EDGE('',*,*,#243,.T.);
#150=ORIENTED_EDGE('',*,*,#244,.T.);
#151=ORIENTED_EDGE('',*,*,#243,.F.);
#152=ORIENTED_EDGE('',*,*,#245,.F.);
#153=ORIENTED_EDGE('',*,*,#246,.T.);
#154=ORIENTED_EDGE('',*,*,#247,.T.);
#155=ORIENTED_EDGE('',*,*,#246,.F.);
#156=ORIENTED_EDGE('',*,*,#248,.F.);
#157=ORIENTED_EDGE('',*,*,#249,.T.);
#158=ORIENTED_EDGE('',*,*,#250,.T.);
#159=ORIENTED_EDGE('',*,*,#249,.F.);
#160=ORIENTED_EDGE('',*,*,#251,.F.);
#161=ORIENTED_EDGE('',*,*,#252,.T.);
#162=ORIENTED_EDGE('',*,*,#253,.T.);
#163=ORIENTED_EDGE('',*,*,#252,.F.);
#164=ORIENTED_EDGE('',*,*,#254,.F.);
#165=ORIENTED_EDGE('',*,*,#255,.T.);
#166=ORIENTED_EDGE('',*,*,#256,.T.);
#167=ORIENTED_EDGE('',*,*,#255,.F.);
#168=ORIENTED_EDGE('',*,*,#257,.F.);
#169=ORIENTED_EDGE('',*,*,#258,.T.);
#170=ORIENTED_EDGE('',*,*,#259,.T.);
#171=ORIENTED_EDGE('',*,*,#258,.F.);
#172=ORIENTED_EDGE('',*,*,#260,.F.);
#173=ORIENTED_EDGE('',*,*,#261,.T.);
#174=ORIENTED_EDGE('',*,*,#262,.T.);
#175=ORIENTED_EDGE('',*,*,#261,.F.);
#176=ORIENTED_EDGE('',*,*,#263,.F.);
#177=ORIENTED_EDGE('',*,*,#264,.T.);
#178=ORIENTED_EDGE('',*,*,#265,.T.);
#179=ORIENTED_EDGE('',*,*,#264,.F.);
#180=ORIENTED_EDGE('',*,*,#266,.F.);
#181=ORIENTED_EDGE('',*,*,#267,.T.);
#182=ORIENTED_EDGE('',*,*,#268,.T.);
#183=ORIENTED_EDGE('',*,*,#267,.F.);
#184=ORIENTED_EDGE('',*,*,#269,.F.);
#185=ORIENTED_EDGE('',*,*,#235,.T.);
#186=ORIENTED_EDGE('',*,*,#236,.T.);
#187=ORIENTED_EDGE('',*,*,#269,.T.);
#188=ORIENTED_EDGE('',*,*,#266,.T.);
#189=ORIENTED_EDGE('',*,*,#263,.T.);
#190=ORIENTED_EDGE('',*,*,#260,.T.);
#191=ORIENTED_EDGE('',*,*,#257,.T.);
#192=ORIENTED_EDGE('',*,*,#254,.T.);
#193=ORIENTED_EDGE('',*,*,#251,.T.);
#194=ORIENTED_EDGE('',*,*,#248,.T.);
#195=ORIENTED_EDGE('',*,*,#245,.T.);
#196=ORIENTED_EDGE('',*,*,#242,.T.);
#197=ORIENTED_EDGE('',*,*,#239,.T.);
#198=ORIENTED_EDGE('',*,*,#265,.F.);
#199=ORIENTED_EDGE('',*,*,#268,.F.);
#200=ORIENTED_EDGE('',*,*,#234,.F.);
#201=ORIENTED_EDGE('',*,*,#238,.F.);
#202=ORIENTED_EDGE('',*,*,#241,.F.);
#203=ORIENTED_EDGE('',*,*,#244,.F.);
#204=ORIENTED_EDGE('',*,*,#247,.F.);
#205=ORIENTED_EDGE('',*,*,#250,.F.);
#206=ORIENTED_EDGE('',*,*,#253,.F.);
#207=ORIENTED_EDGE('',*,*,#256,.F.);
#208=ORIENTED_EDGE('',*,*,#259,.F.);
#209=ORIENTED_EDGE('',*,*,#262,.F.);
#210=VERTEX_POINT('',#389);
#211=VERTEX_POINT('',#390);
#212=VERTEX_POINT('',#392);
#213=VERTEX_POINT('',#394);
#214=VERTEX_POINT('',#398);
#215=VERTEX_POINT('',#400);
#216=VERTEX_POINT('',#404);
#217=VERTEX_POINT('',#406);
#218=VERTEX_POINT('',#410);
#219=VERTEX_POINT('',#412);
#220=VERTEX_POINT('',#416);
#221=VERTEX_POINT('',#418);
#222=VERTEX_POINT('',#422);
#223=VERTEX_POINT('',#424);
#224=VERTEX_POINT('',#428);
#225=VERTEX_POINT('',#430);
#226=VERTEX_POINT('',#434);
#227=VERTEX_POINT('',#436);
#228=VERTEX_POINT('',#440);
#229=VERTEX_POINT('',#442);
#230=VERTEX_POINT('',#446);
#231=VERTEX_POINT('',#448);
#232=VERTEX_POINT('',#452);
#233=VERTEX_POINT('',#454);
#234=EDGE_CURVE('',#210,#211,#270,.T.);
#235=EDGE_CURVE('',#212,#211,#90,.T.);
#236=EDGE_CURVE('',#213,#212,#271,.T.);
#237=EDGE_CURVE('',#213,#210,#91,.T.);
#238=EDGE_CURVE('',#214,#210,#92,.T.);
#239=EDGE_CURVE('',#215,#213,#93,.T.);
#240=EDGE_CURVE('',#215,#214,#94,.T.);
#241=EDGE_CURVE('',#216,#214,#272,.T.);
#242=EDGE_CURVE('',#217,#215,#273,.T.);
#243=EDGE_CURVE('',#217,#216,#95,.T.);
#244=EDGE_CURVE('',#218,#216,#96,.T.);
#245=EDGE_CURVE('',#219,#217,#97,.T.);
#246=EDGE_CURVE('',#219,#218,#98,.T.);
#247=EDGE_CURVE('',#220,#218,#274,.T.);
#248=EDGE_CURVE('',#221,#219,#275,.T.);
#249=EDGE_CURVE('',#221,#220,#99,.T.);
#250=EDGE_CURVE('',#222,#220,#100,.T.);
#251=EDGE_CURVE('',#223,#221,#101,.T.);
#252=EDGE_CURVE('',#223,#222,#102,.T.);
#253=EDGE_CURVE('',#224,#222,#276,.T.);
#254=EDGE_CURVE('',#225,#223,#277,.T.);
#255=EDGE_CURVE('',#225,#224,#103,.T.);
#256=EDGE_CURVE('',#226,#224,#104,.T.);
#257=EDGE_CURVE('',#227,#225,#105,.T.);
#258=EDGE_CURVE('',#227,#226,#106,.T.);
#259=EDGE_CURVE('',#228,#226,#278,.T.);
#260=EDGE_CURVE('',#229,#227,#279,.T.);
#261=EDGE_CURVE('',#229,#228,#107,.T.);
#262=EDGE_CURVE('',#230,#228,#108,.T.);
#263=EDGE_CURVE('',#231,#229,#109,.T.);
#264=EDGE_CURVE('',#231,#230,#110,.T.);
#265=EDGE_CURVE('',#232,#230,#280,.T.);
#266=EDGE_CURVE('',#233,#231,#281,.T.);
#267=EDGE_CURVE('',#233,#232,#111,.T.);
#268=EDGE_CURVE('',#211,#232,#112,.T.);
#269=EDGE_CURVE('',#212,#233,#113,.T.);
#270=CIRCLE('',#283,6.2);
#271=CIRCLE('',#284,6.2);
#272=CIRCLE('',#287,6.2);
#273=CIRCLE('',#288,6.2);
#274=CIRCLE('',#291,6.2);
#275=CIRCLE('',#292,6.2);
#276=CIRCLE('',#295,6.2);
#277=CIRCLE('',#296,6.2);
#278=CIRCLE('',#299,6.2);
#279=CIRCLE('',#300,6.2);
#280=CIRCLE('',#303,6.2);
#281=CIRCLE('',#304,6.2);
#282=AXIS2_PLACEMENT_3D('',#387,#309,#310);
#283=AXIS2_PLACEMENT_3D('',#388,#311,#312);
#284=AXIS2_PLACEMENT_3D('',#393,#314,#315);
#285=AXIS2_PLACEMENT_3D('',#396,#317,#318);
#286=AXIS2_PLACEMENT_3D('',#402,#322,#323);
#287=AXIS2_PLACEMENT_3D('',#403,#324,#325);
#288=AXIS2_PLACEMENT_3D('',#405,#326,#327);
#289=AXIS2_PLACEMENT_3D('',#408,#329,#330);
#290=AXIS2_PLACEMENT_3D('',#414,#334,#335);
#291=AXIS2_PLACEMENT_3D('',#415,#336,#337);
#292=AXIS2_PLACEMENT_3D('',#417,#338,#339);
#293=AXIS2_PLACEMENT_3D('',#420,#341,#342);
#294=AXIS2_PLACEMENT_3D('',#426,#346,#347);
#295=AXIS2_PLACEMENT_3D('',#427,#348,#349);
#296=AXIS2_PLACEMENT_3D('',#429,#350,#351);
#297=AXIS2_PLACEMENT_3D('',#432,#353,#354);
#298=AXIS2_PLACEMENT_3D('',#438,#358,#359);
#299=AXIS2_PLACEMENT_3D('',#439,#360,#361);
#300=AXIS2_PLACEMENT_3D('',#441,#362,#363);
#301=AXIS2_PLACEMENT_3D('',#444,#365,#366);
#302=AXIS2_PLACEMENT_3D('',#450,#370,#371);
#303=AXIS2_PLACEMENT_3D('',#451,#372,#373);
#304=AXIS2_PLACEMENT_3D('',#453,#374,#375);
#305=AXIS2_PLACEMENT_3D('',#456,#377,#378);
#306=AXIS2_PLACEMENT_3D('',#459,#381,#382);
#307=AXIS2_PLACEMENT_3D('',#460,#383,#384);
#308=AXIS2_PLACEMENT_3D('',#461,#385,#386);
#309=DIRECTION('',(0.,0.,1.));
#310=DIRECTION('',(1.,0.,0.));
#311=DIRECTION('',(0.,0.,-1.));
#312=DIRECTION('',(1.,0.,0.));
#313=DIRECTION('',(0.,0.,1.));
#314=DIRECTION('',(0.,0.,-1.));
#315=DIRECTION('',(1.,0.,0.));
#316=DIRECTION('',(0.,0.,1.));
#317=DIRECTION('',(0.,0.,1.));
#318=DIRECTION('',(1.,0.,0.));
#319=DIRECTION('',(-0.772071606551611,0.635535549247101,0.));
#320=DIRECTION('',(-0.772071606551611,0.635535549247101,0.));
#321=DIRECTION('',(0.,0.,1.));
#322=DIRECTION('',(0.635535549247101,0.772071606551611,0.));
#323=DIRECTION('',(-0.772071606551611,0.635535549247101,0.));
#324=DIRECTION('',(0.,0.,-1.));
#325=DIRECTION('',(1.,0.,0.));
#326=DIRECTION('',(0.,0.,-1.));
#327=DIRECTION('',(1.,0.,0.));
#328=DIRECTION('',(0.,0.,1.));
#329=DIRECTION('',(0.,0.,1.));
#330=DIRECTION('',(1.,0.,0.));
#331=DIRECTION('',(-1.,0.,0.));
#332=DIRECTION('',(-1.,0.,0.));
#333=DIRECTION('',(0.,0.,1.));
#334=DIRECTION('',(0.,1.,0.));
#335=DIRECTION('',(0.,0.,1.));
#336=DIRECTION('',(0.,0.,-1.));
#337=DIRECTION('',(1.,0.,0.));
#338=DIRECTION('',(0.,0.,-1.));
#339=DIRECTION('',(1.,0.,0.));
#340=DIRECTION('',(0.,0.,1.));
#341=DIRECTION('',(0.,0.,1.));
#342=DIRECTION('',(1.,0.,0.));
#343=DIRECTION('',(-0.772071606551611,-0.635535549247101,0.));
#344=DIRECTION('',(-0.772071606551611,-0.635535549247101,0.));
#345=DIRECTION('',(0.,0.,1.));
#346=DIRECTION('',(-0.635535549247101,0.772071606551611,0.));
#347=DIRECTION('',(-0.772071606551611,-0.635535549247101,0.));
#348=DIRECTION('',(0.,0.,-1.));
#349=DIRECTION('',(1.,0.,0.));
#350=DIRECTION('',(0.,0.,-1.));
#351=DIRECTION('',(1.,0.,0.));
#352=DIRECTION('',(0.,0.,1.));
#353=DIRECTION('',(0.,0.,1.));
#354=DIRECTION('',(1.,0.,0.));
#355=DIRECTION('',(0.312670401052111,-0.949861684828856,0.));
#356=DIRECTION('',(0.312670401052111,-0.949861684828856,0.));
#357=DIRECTION('',(0.,0.,1.));
#358=DIRECTION('',(-0.949861684828856,-0.312670401052111,0.));
#359=DIRECTION('',(0.312670401052111,-0.949861684828856,0.));
#360=DIRECTION('',(0.,0.,-1.));
#361=DIRECTION('',(1.,0.,0.));
#362=DIRECTION('',(0.,0.,-1.));
#363=DIRECTION('',(1.,0.,0.));
#364=DIRECTION('',(0.,0.,1.));
#365=DIRECTION('',(0.,0.,1.));
#366=DIRECTION('',(1.,0.,0.));
#367=DIRECTION('',(1.,8.71209532199588E-18,0.));
#368=DIRECTION('',(1.,8.71209532199588E-18,0.));
#369=DIRECTION('',(0.,0.,1.));
#370=DIRECTION('',(8.71209532199588E-18,-1.,0.));
#371=DIRECTION('',(1.,8.67361737988404E-18,0.));
#372=DIRECTION('',(0.,0.,-1.));
#373=DIRECTION('',(1.,0.,0.));
#374=DIRECTION('',(0.,0.,-1.));
#375=DIRECTION('',(1.,0.,0.));
#376=DIRECTION('',(0.,0.,1.));
#377=DIRECTION('',(0.,0.,1.));
#378=DIRECTION('',(1.,0.,0.));
#379=DIRECTION('',(0.312670401052111,0.949861684828856,0.));
#380=DIRECTION('',(0.312670401052111,0.949861684828856,0.));
#381=DIRECTION('',(0.949861684828856,-0.312670401052111,0.));
#382=DIRECTION('',(0.312670401052111,0.949861684828856,0.));
#383=DIRECTION('',(-4.73672248579189E-47,0.,1.));
#384=DIRECTION('',(1.,0.,0.));
#385=DIRECTION('',(-4.73672248579189E-47,0.,1.));
#386=DIRECTION('',(1.,0.,0.));
#387=CARTESIAN_POINT('',(0.,0.,0.));
#388=CARTESIAN_POINT('',(-95.5172397171614,-198.376602694452,99.2054136663112));
#389=CARTESIAN_POINT('',(-99.4575601224934,-203.163446655072,99.2054136663112));
#390=CARTESIAN_POINT('',(-101.4063821631,-196.438046207929,99.2054136663112));
#391=CARTESIAN_POINT('',(-101.4063821631,-196.438046207929,98.7054136663112));
#392=CARTESIAN_POINT('',(-101.4063821631,-196.438046207929,98.7054136663112));
#393=CARTESIAN_POINT('',(-95.5172397171614,-198.376602694452,98.7054136663112));
#394=CARTESIAN_POINT('',(-99.4575601224934,-203.163446655072,98.7054136663112));
#395=CARTESIAN_POINT('',(-99.4575601224934,-203.163446655072,98.7054136663109));
#396=CARTESIAN_POINT('',(-95.5172397171614,-198.376602694452,98.7054136663109));
#397=CARTESIAN_POINT('',(-41.2384811222102,-251.08684396062,99.2054136663109));
#398=CARTESIAN_POINT('',(-41.2384811222102,-251.08684396062,99.2054136663109));
#399=CARTESIAN_POINT('',(-41.2384811222102,-251.08684396062,98.7054136663109));
#400=CARTESIAN_POINT('',(-41.2384811222102,-251.08684396062,98.7054136663109));
#401=CARTESIAN_POINT('',(-41.2384811222102,-251.08684396062,98.7054136663112));
#402=CARTESIAN_POINT('',(-41.2384811222102,-251.08684396062,98.7054136663112));
#403=CARTESIAN_POINT('',(-37.2981607168781,-246.3,99.2054136663112));
#404=CARTESIAN_POINT('',(-37.2981607168781,-252.5,99.2054136663112));
#405=CARTESIAN_POINT('',(-37.2981607168781,-246.3,98.7054136663112));
#406=CARTESIAN_POINT('',(-37.2981607168781,-252.5,98.7054136663112));
#407=CARTESIAN_POINT('',(-37.2981607168781,-252.5,98.7054136663109));
#408=CARTESIAN_POINT('',(-37.2981607168781,-246.3,98.7054136663109));
#409=CARTESIAN_POINT('',(177.298160716879,-252.5,99.2054136663109));
#410=CARTESIAN_POINT('',(177.298160716879,-252.5,99.2054136663109));
#411=CARTESIAN_POINT('',(177.298160716879,-252.5,98.7054136663109));
#412=CARTESIAN_POINT('',(177.298160716879,-252.5,98.7054136663109));
#413=CARTESIAN_POINT('',(177.298160716879,-252.5,98.7054136663112));
#414=CARTESIAN_POINT('',(177.298160716879,-252.5,98.7054136663112));
#415=CARTESIAN_POINT('',(177.298160716879,-246.3,99.2054136663112));
#416=CARTESIAN_POINT('',(181.238481122211,-251.08684396062,99.2054136663112));
#417=CARTESIAN_POINT('',(177.298160716879,-246.3,98.7054136663112));
#418=CARTESIAN_POINT('',(181.238481122211,-251.08684396062,98.7054136663112));
#419=CARTESIAN_POINT('',(181.238481122211,-251.08684396062,98.7054136663109));
#420=CARTESIAN_POINT('',(177.298160716879,-246.3,98.7054136663109));
#421=CARTESIAN_POINT('',(239.457560122494,-203.163446655072,99.2054136663109));
#422=CARTESIAN_POINT('',(239.457560122494,-203.163446655072,99.2054136663109));
#423=CARTESIAN_POINT('',(239.457560122494,-203.163446655072,98.7054136663109));
#424=CARTESIAN_POINT('',(239.457560122494,-203.163446655072,98.7054136663109));
#425=CARTESIAN_POINT('',(239.457560122494,-203.163446655072,98.7054136663112));
#426=CARTESIAN_POINT('',(239.457560122494,-203.163446655072,98.7054136663112));
#427=CARTESIAN_POINT('',(235.517239717162,-198.376602694452,99.2054136663112));
#428=CARTESIAN_POINT('',(241.406382163101,-196.438046207929,99.2054136663112));
#429=CARTESIAN_POINT('',(235.517239717162,-198.376602694452,98.7054136663112));
#430=CARTESIAN_POINT('',(241.406382163101,-196.438046207929,98.7054136663112));
#431=CARTESIAN_POINT('',(241.406382163101,-196.438046207929,98.7054136663109));
#432=CARTESIAN_POINT('',(235.517239717162,-198.376602694452,98.7054136663109));
#433=CARTESIAN_POINT('',(175.447481276155,3.93855648652324,99.2054136663109));
#434=CARTESIAN_POINT('',(175.447481276155,3.93855648652323,99.2054136663109));
#435=CARTESIAN_POINT('',(175.447481276155,3.93855648652324,98.7054136663109));
#436=CARTESIAN_POINT('',(175.447481276155,3.93855648652324,98.7054136663109));
#437=CARTESIAN_POINT('',(175.447481276155,3.93855648652324,98.7054136663112));
#438=CARTESIAN_POINT('',(175.447481276155,3.93855648652324,98.7054136663112));
#439=CARTESIAN_POINT('',(169.558338830216,2.00000000000011,99.2054136663112));
#440=CARTESIAN_POINT('',(169.558338830216,8.20000000000011,99.2054136663112));
#441=CARTESIAN_POINT('',(169.558338830216,2.00000000000011,98.7054136663112));
#442=CARTESIAN_POINT('',(169.558338830216,8.20000000000011,98.7054136663112));
#443=CARTESIAN_POINT('',(169.558338830216,8.20000000000011,98.7054136663109));
#444=CARTESIAN_POINT('',(169.558338830216,2.00000000000011,98.7054136663109));
#445=CARTESIAN_POINT('',(-29.5583388302155,8.20000000000011,99.2054136663109));
#446=CARTESIAN_POINT('',(-29.5583388302155,8.20000000000011,99.2054136663109));
#447=CARTESIAN_POINT('',(-29.5583388302155,8.20000000000011,98.7054136663109));
#448=CARTESIAN_POINT('',(-29.5583388302155,8.20000000000011,98.7054136663109));
#449=CARTESIAN_POINT('',(-29.5583388302155,8.20000000000011,98.7054136663112));
#450=CARTESIAN_POINT('',(-29.5583388302155,8.20000000000011,98.7054136663112));
#451=CARTESIAN_POINT('',(-29.5583388302155,2.00000000000011,99.2054136663112));
#452=CARTESIAN_POINT('',(-35.4474812761544,3.9385564865233,99.2054136663112));
#453=CARTESIAN_POINT('',(-29.5583388302155,2.00000000000011,98.7054136663112));
#454=CARTESIAN_POINT('',(-35.4474812761544,3.93855648652328,98.7054136663112));
#455=CARTESIAN_POINT('',(-35.4474812761544,3.93855648652328,98.7054136663109));
#456=CARTESIAN_POINT('',(-29.5583388302155,2.00000000000011,98.7054136663109));
#457=CARTESIAN_POINT('',(-101.4063821631,-196.438046207929,99.2054136663112));
#458=CARTESIAN_POINT('',(-101.4063821631,-196.438046207929,98.7054136663112));
#459=CARTESIAN_POINT('',(-101.4063821631,-196.438046207929,98.7054136663112));
#460=CARTESIAN_POINT('',(-95.5172397171614,-198.376602694452,98.7054136663109));
#461=CARTESIAN_POINT('',(-29.5583388302155,2.00000000000011,99.2054136663109));
#462=(
GEOMETRIC_REPRESENTATION_CONTEXT(3)
GLOBAL_UNCERTAINTY_ASSIGNED_CONTEXT((#463))
GLOBAL_UNIT_ASSIGNED_CONTEXT((#469,#465,#464))
REPRESENTATION_CONTEXT('530-201_Modell','TOP_LEVEL_ASSEMBLY_PART')
);
#463=UNCERTAINTY_MEASURE_WITH_UNIT(LENGTH_MEASURE(0.001),#469,
'DISTANCE_ACCURACY_VALUE','Maximum Tolerance applied to model');
#464=(
NAMED_UNIT(*)
SI_UNIT($,.STERADIAN.)
SOLID_ANGLE_UNIT()
);
#465=(
CONVERSION_BASED_UNIT('DEGREE',#467)
NAMED_UNIT(#466)
PLANE_ANGLE_UNIT()
);
#466=DIMENSIONAL_EXPONENTS(0.,0.,0.,0.,0.,0.,0.);
#467=PLANE_ANGLE_MEASURE_WITH_UNIT(PLANE_ANGLE_MEASURE(0.0174532925),#468);
#468=(
NAMED_UNIT(*)
PLANE_ANGLE_UNIT()
SI_UNIT($,.RADIAN.)
);
#469=(
LENGTH_UNIT()
NAMED_UNIT(*)
SI_UNIT(.MILLI.,.METRE.)
);
ENDSEC;
END-ISO-10303-21;
